0
SECTION
2
HEADER
9
$INSUNITS
70
1
9
$ACADVER
1
AC1014
9
$HANDSEED
5
FFFF
0
ENDSEC
0
SECTION
2
TABLES
0
TABLE
2
VPORT
5
8
100
AcDbSymbolTable
0
ENDTAB
0
TABLE
2
LTYPE
5
5
100
AcDbSymbolTable
0
LTYPE
5
14
100
AcDbSymbolTableRecord
100
AcDbLinetypeTableRecord
2
BYBLOCK
70
0
0
LTYPE
5
15
100
AcDbSymbolTableRecord
100
AcDbLinetypeTableRecord
2
BYLAYER
70
0
0
ENDTAB
0
TABLE
2
LAYER
5
2
100
AcDbSymbolTable
70
2
0
LAYER
5
50
100
AcDbSymbolTableRecord
100
AcDbLayerTableRecord
2
0
70
0
6
CONTINUOUS
0
ENDTAB
0
TABLE
2
STYLE
5
3
100
AcDbSymbolTable
70
1
0
STYLE
5
11
100
AcDbSymbolTableRecord
100
AcDbTextStyleTableRecord
2
STANDARD
70
0
0
ENDTAB
0
TABLE
2
VIEW
5
6
100
AcDbSymbolTable
70
0
0
ENDTAB
0
TABLE
2
UCS
5
7
100
AcDbSymbolTable
70
0
0
ENDTAB
0
TABLE
2
APPID
5
9
100
AcDbSymbolTable
70
2
0
APPID
5
12
100
AcDbSymbolTableRecord
100
AcDbRegAppTableRecord
2
ACAD
70
0
0
ENDTAB
0
TABLE
2
DIMSTYLE
5
A
100
AcDbSymbolTable
70
1
0
ENDTAB
0
TABLE
2
BLOCK_RECORD
5
1
100
AcDbSymbolTable
70
1
0
BLOCK_RECORD
5
1F
100
AcDbSymbolTableRecord
100
AcDbBlockTableRecord
2
*MODEL_SPACE
0
BLOCK_RECORD
5
1B
100
AcDbSymbolTableRecord
100
AcDbBlockTableRecord
2
*PAPER_SPACE
0
ENDTAB
0
ENDSEC
0
SECTION
2
BLOCKS
0
BLOCK
5
20
100
AcDbEntity
100
AcDbBlockBegin
2
*MODEL_SPACE
0
ENDBLK
5
21
100
AcDbEntity
100
AcDbBlockEnd
0
BLOCK
5
1C
100
AcDbEntity
100
AcDbBlockBegin
2
*PAPER_SPACE
0
ENDBLK
5
1D
100
AcDbEntity
100
AcDbBlockEnd
0
ENDSEC
0
SECTION
2
ENTITIES
0
ARC
5
100
100
AcDbEntity
8
0
100
AcDbCircle
10
-33.927907623103188
20
-43.817493963138809
30
0
40
0.12499999999999674
100
AcDbArc
50
-45.000000000043762
51
134.99999999995165
0
LINE
5
101
100
AcDbEntity
8
0
100
AcDbLine
10
-33.83951927545494
20
-43.905882310787192
30
0
11
-33.839519275454947
21
-45.885662253527123
31
0
0
ARC
5
102
100
AcDbEntity
8
0
100
AcDbCircle
10
-33.927907623103195
20
-45.974050601175513
30
-2.4648362428818733e-47
40
0.12499999999999278
100
AcDbArc
50
-134.99999999993784
51
45.000000000046057
0
LINE
5
103
100
AcDbEntity
8
0
100
AcDbLine
10
-34.016295970751415
20
-46.062438948823925
30
-1.5407439555097632e-33
11
-34.453692503801399
21
-46.062438948823925
31
-1.6739369903496925e-24
0
LINE
5
104
100
AcDbEntity
8
0
100
AcDbLine
10
-34.453692503801399
20
-46.062438948823925
30
-1.6739369903496925e-24
11
-34.453692503801406
21
-49.062438948823917
31
0
0
LINE
5
105
100
AcDbEntity
8
0
100
AcDbLine
10
-34.453692503801406
20
-49.062438948823917
30
0
11
-34.016295970751621
21
-49.06243894882391
31
1.6739203600204465e-24
0
ARC
5
106
100
AcDbEntity
8
0
100
AcDbCircle
10
-33.927907623103195
20
-49.150827296472116
30
-6.680649051745406e-47
40
0.12500000000000069
100
AcDbArc
50
-45.000000000043762
51
135.0000000000714
0
LINE
5
107
100
AcDbEntity
8
0
100
AcDbLine
10
-33.83951927545494
20
-49.239215644120506
30
3.0351400256583372e-45
11
-33.839519275454947
21
-52.170772282157245
31
4.8849918604356925e-40
0
LINE
5
108
100
AcDbEntity
8
0
100
AcDbLine
10
-33.839519275454947
20
-52.170772282157245
30
4.8849918604356925e-40
11
-25.574629304084986
21
-52.170772282157237
31
-2.9237962465854845e-24
0
ARC
5
109
100
AcDbEntity
8
0
100
AcDbCircle
10
-25.486240956436554
20
-52.259160629805457
30
0
40
0.12499999999998883
100
AcDbArc
50
-45.000000000034554
51
135.00000120737911
0
LINE
5
110
100
AcDbEntity
8
0
100
AcDbLine
10
-25.397852608788298
20
-52.347548977453819
30
0
11
-25.397852608788298
21
-52.784945510503682
31
4.8849920511497295e-40
0
LINE
5
111
100
AcDbEntity
8
0
100
AcDbLine
10
-25.397852608788298
20
-52.784945510503682
30
4.8849920511497295e-40
11
-22.397852608788302
21
-52.78494551050369
31
0
0
LINE
5
112
100
AcDbEntity
8
0
100
AcDbLine
10
-22.397852608788302
20
-52.78494551050369
30
0
11
-22.397852608788298
21
-52.347548977453719
31
-4.8849920511497295e-40
0
ARC
5
113
100
AcDbEntity
8
0
100
AcDbCircle
10
-22.309464261139926
20
-52.259160629805443
30
0
40
0.12500000000000266
100
AcDbArc
50
44.999999999935518
51
224.99999999996891
0
LINE
5
114
100
AcDbEntity
8
0
100
AcDbLine
10
-22.221075913491507
20
-52.170772282157223
30
0
11
-14.686309094111289
21
-52.170772282157237
31
0
0
ARC
5
115
100
AcDbEntity
8
0
100
AcDbCircle
10
-14.597920746462867
20
-52.259160629805443
30
0
40
0.1249999999999987
100
AcDbArc
50
-45.000000000018417
51
135.00000000007026
0
LINE
5
116
100
AcDbEntity
8
0
100
AcDbLine
10
-14.509532398814576
20
-52.347548977453791
30
0
11
-14.509532398814576
21
-52.784945510503682
31
4.8849920511497295e-40
0
LINE
5
117
100
AcDbEntity
8
0
100
AcDbLine
10
-14.509532398814576
20
-52.784945510503682
30
4.8849920511497295e-40
11
-11.509532398814583
21
-52.78494551050369
31
0
0
LINE
5
118
100
AcDbEntity
8
0
100
AcDbLine
10
-11.509532398814583
20
-52.78494551050369
30
0
11
-11.50953239881458
21
-52.347548977453734
31
-4.8849920511497295e-40
0
ARC
5
119
100
AcDbEntity
8
0
100
AcDbCircle
10
-11.421144051166236
20
-52.259160629805443
30
0
40
0.12500000000000069
100
AcDbArc
50
44.999999999928036
51
224.99999999998275
0
LINE
5
120
100
AcDbEntity
8
0
100
AcDbLine
10
-11.332755703517808
20
-52.170772282157237
30
0
11
-3.0678657321479301
21
-52.170772282157237
31
-2.9238029239514146e-24
0
LINE
5
121
100
AcDbEntity
8
0
100
AcDbLine
10
-3.0678657321479301
20
-52.170772282157237
30
-2.9238029239514146e-24
11
-3.0678657321479306
21
-49.239215644120435
31
2.1654134964268184e-32
0
ARC
5
122
100
AcDbEntity
8
0
100
AcDbCircle
10
-2.9794773844996096
20
-49.150827296472123
30
3.5962364855161759e-47
40
0.1249999999999982
100
AcDbArc
50
44.999999999927162
51
224.9999999999971
0
LINE
5
123
100
AcDbEntity
8
0
100
AcDbLine
10
-2.8910890368511795
20
-49.062438948823917
30
-1.826793791284542e-45
11
-2.4536925038014772
21
-49.06243894882391
31
1.6739136147162003e-24
0
LINE
5
124
100
AcDbEntity
8
0
100
AcDbLine
10
-2.4536925038014772
20
-49.06243894882391
30
1.6739136147162003e-24
11
-2.4536925038014772
21
-46.062438948823917
31
0
0
LINE
5
125
100
AcDbEntity
8
0
100
AcDbLine
10
-2.4536925038014772
20
-46.062438948823917
30
0
11
-2.8910890368513824
21
-46.062438948823925
31
-1.6739302450454463e-24
0
ARC
5
126
100
AcDbEntity
8
0
100
AcDbCircle
10
-2.9794773844996065
20
-45.974050601175513
30
0
40
0.12500000000000241
100
AcDbArc
50
135.00000000000159
51
314.99999999993929
0
LINE
5
127
100
AcDbEntity
8
0
100
AcDbLine
10
-3.0678657321479306
20
-45.885662253527194
30
0
11
-3.0678657321479306
21
-43.905882310787128
31
0
0
ARC
5
128
100
AcDbEntity
8
0
100
AcDbCircle
10
-2.9794773844996083
20
-43.817493963138809
30
1.4950646063381856e-47
40
0.12499999999999623
100
AcDbArc
50
44.999999999936236
51
225.00000120735234
0
LINE
5
129
100
AcDbEntity
8
0
100
AcDbLine
10
-2.8910890368511919
20
-43.729105615490589
30
-1.6071566784680067e-45
11
-2.4536925038014763
21
-43.729105615490589
31
1.6739147162874693e-24
0
LINE
5
130
100
AcDbEntity
8
0
100
AcDbLine
10
-2.4536925038014763
20
-43.729105615490589
30
1.6739147162874693e-24
11
-2.4536925038014767
21
-40.729105615490603
31
0
0
LINE
5
131
100
AcDbEntity
8
0
100
AcDbLine
10
-2.4536925038014767
20
-40.729105615490603
30
0
11
-2.8910890368513718
21
-40.729105615490603
31
-1.6739294443438629e-24
0
ARC
5
132
100
AcDbEntity
8
0
100
AcDbCircle
10
-2.9794773844996087
20
-40.640717267842192
30
1.3469050507551221e-49
40
0.12499999999999674
100
AcDbArc
50
135.00000000000549
51
314.99999999994344
0
LINE
5
133
100
AcDbEntity
8
0
100
AcDbLine
10
-3.0678657321479306
20
-40.552328920193887
30
1.5407439555097847e-33
11
-3.067865732147931
21
-36.784945510503732
31
-2.1654134964268184e-32
0
LINE
5
134
100
AcDbEntity
8
0
100
AcDbLine
10
-3.067865732147931
20
-36.784945510503732
30
-2.1654134964268184e-32
11
-33.83951927545494
21
-36.784945510503732
31
-3.1057515953583139e-31
0
LINE
5
135
100
AcDbEntity
8
0
100
AcDbLine
10
-33.83951927545494
20
-36.784945510503732
30
-3.1057515953583139e-31
11
-33.839519275454947
21
-40.552328920193808
31
-4.8849918604356925e-40
0
ARC
5
136
100
AcDbEntity
8
0
100
AcDbCircle
10
-33.927907623103188
20
-40.640717267842192
30
0
40
0.12500000000000069
100
AcDbArc
50
-134.99999999994475
51
45.000000000046057
0
LINE
5
137
100
AcDbEntity
8
0
100
AcDbLine
10
-34.016295970751422
20
-40.729105615490596
30
0
11
-34.453692503801399
21
-40.729105615490603
31
-1.6739360683296876e-24
0
LINE
5
138
100
AcDbEntity
8
0
100
AcDbLine
10
-34.453692503801399
20
-40.729105615490603
30
-1.6739360683296876e-24
11
-34.453692503801406
21
-43.729105615490589
31
0
0
LINE
5
139
100
AcDbEntity
8
0
100
AcDbLine
10
-34.453692503801406
20
-43.729105615490589
30
0
11
-34.016295970751429
21
-43.729105615490418
31
0
0
ENDSEC
0
SECTION
2
OBJECTS
0
DICTIONARY
5
C
100
AcDbDictionary
3
ACAD_GROUP
350
D
3
ACAD_MLINESTYLE
350
17
0
DICTIONARY
5
D
100
AcDbDictionary
0
DICTIONARY
5
1A
330
C
100
AcDbDictionary
0
DICTIONARY
5
17
100
AcDbDictionary
0
ENDSEC
0
EOF
